ISO-10303-21;
HEADER;
/* Generated by software containing ST-Developer
 * from STEP Tools, Inc. (www.steptools.com) 
 */
/* OPTION: using custom renumber hook */

FILE_DESCRIPTION(
/* description */ ('STEP AP242',
'CAx-IF Rec.Pracs.---Representation and Presentation of Product Manufa
cturing Information (PMI)---4.0---2014-10-13',
'CAx-IF Rec.Pracs.---3D Tessellated Geometry---0.4---2014-09-14','2;1'),

/* implementation_level */ '2;1');

FILE_NAME(
/* name */ '6754db2348535d3dab245649',
/* time_stamp */ '2024-12-07T23:32:52Z',
/* author */ (''),
/* organization */ (''),
/* preprocessor_version */ 'ST-DEVELOPER v20',
/* originating_system */ 'ONSHAPE BY PTC INC, 1.190',
/* authorisation */ '  ');

FILE_SCHEMA (('AP242_MANAGED_MODEL_BASED_3D_ENGINEERING_MIM_LF { 1 0 10303 442 1 1 4 }'));
ENDSEC;

DATA;
#10=SHAPE_REPRESENTATION_RELATIONSHIP('','',#403,#11);
#11=ADVANCED_BREP_SHAPE_REPRESENTATION('',(#401),#693);
#12=CONICAL_SURFACE('',#426,0.0125,0.785398163397449);
#13=PLANE('',#411);
#14=PLANE('',#412);
#15=PLANE('',#424);
#16=PLANE('',#435);
#17=PLANE('',#444);
#18=PLANE('',#445);
#19=PLANE('',#446);
#20=PLANE('',#447);
#21=PLANE('',#448);
#22=PLANE('',#449);
#23=PLANE('',#450);
#24=PLANE('',#451);
#25=PLANE('',#452);
#26=LINE('',#583,#54);
#27=LINE('',#588,#55);
#28=LINE('',#592,#56);
#29=LINE('',#596,#57);
#30=LINE('',#600,#58);
#31=LINE('',#602,#59);
#32=LINE('',#604,#60);
#33=LINE('',#606,#61);
#34=LINE('',#607,#62);
#35=LINE('',#609,#63);
#36=LINE('',#637,#64);
#37=LINE('',#641,#65);
#38=LINE('',#643,#66);
#39=LINE('',#647,#67);
#40=LINE('',#654,#68);
#41=LINE('',#658,#69);
#42=LINE('',#660,#70);
#43=LINE('',#664,#71);
#44=LINE('',#671,#72);
#45=LINE('',#673,#73);
#46=LINE('',#675,#74);
#47=LINE('',#677,#75);
#48=LINE('',#679,#76);
#49=LINE('',#682,#77);
#50=LINE('',#684,#78);
#51=LINE('',#686,#79);
#52=LINE('',#688,#80);
#53=LINE('',#690,#81);
#54=VECTOR('',#459,1.);
#55=VECTOR('',#462,1.);
#56=VECTOR('',#465,1.);
#57=VECTOR('',#468,1.);
#58=VECTOR('',#473,1.);
#59=VECTOR('',#474,1.);
#60=VECTOR('',#475,1.);
#61=VECTOR('',#476,1.);
#62=VECTOR('',#477,1.);
#63=VECTOR('',#478,1.);
#64=VECTOR('',#511,1.);
#65=VECTOR('',#514,1.);
#66=VECTOR('',#517,1.);
#67=VECTOR('',#522,1.);
#68=VECTOR('',#533,1.);
#69=VECTOR('',#536,1.);
#70=VECTOR('',#539,1.);
#71=VECTOR('',#544,1.);
#72=VECTOR('',#555,1.);
#73=VECTOR('',#556,1.);
#74=VECTOR('',#557,1.);
#75=VECTOR('',#560,1.);
#76=VECTOR('',#563,1.);
#77=VECTOR('',#568,1.);
#78=VECTOR('',#569,1.);
#79=VECTOR('',#570,1.);
#80=VECTOR('',#573,1.);
#81=VECTOR('',#576,1.);
#82=ORIENTED_EDGE('',*,*,#186,.T.);
#83=ORIENTED_EDGE('',*,*,#187,.F.);
#84=ORIENTED_EDGE('',*,*,#188,.F.);
#85=ORIENTED_EDGE('',*,*,#189,.T.);
#86=ORIENTED_EDGE('',*,*,#190,.F.);
#87=ORIENTED_EDGE('',*,*,#191,.F.);
#88=ORIENTED_EDGE('',*,*,#192,.F.);
#89=ORIENTED_EDGE('',*,*,#193,.T.);
#90=ORIENTED_EDGE('',*,*,#194,.F.);
#91=ORIENTED_EDGE('',*,*,#195,.F.);
#92=ORIENTED_EDGE('',*,*,#188,.T.);
#93=ORIENTED_EDGE('',*,*,#196,.T.);
#94=ORIENTED_EDGE('',*,*,#197,.T.);
#95=ORIENTED_EDGE('',*,*,#198,.F.);
#96=ORIENTED_EDGE('',*,*,#192,.T.);
#97=ORIENTED_EDGE('',*,*,#199,.T.);
#98=ORIENTED_EDGE('',*,*,#200,.F.);
#99=ORIENTED_EDGE('',*,*,#201,.T.);
#100=ORIENTED_EDGE('',*,*,#202,.F.);
#101=ORIENTED_EDGE('',*,*,#203,.T.);
#102=ORIENTED_EDGE('',*,*,#204,.T.);
#103=ORIENTED_EDGE('',*,*,#205,.T.);
#104=ORIENTED_EDGE('',*,*,#206,.F.);
#105=ORIENTED_EDGE('',*,*,#207,.F.);
#106=ORIENTED_EDGE('',*,*,#208,.T.);
#107=ORIENTED_EDGE('',*,*,#209,.F.);
#108=ORIENTED_EDGE('',*,*,#210,.T.);
#109=ORIENTED_EDGE('',*,*,#201,.F.);
#110=ORIENTED_EDGE('',*,*,#186,.F.);
#111=ORIENTED_EDGE('',*,*,#211,.T.);
#112=ORIENTED_EDGE('',*,*,#211,.F.);
#113=ORIENTED_EDGE('',*,*,#210,.F.);
#114=ORIENTED_EDGE('',*,*,#203,.F.);
#115=ORIENTED_EDGE('',*,*,#212,.F.);
#116=ORIENTED_EDGE('',*,*,#213,.T.);
#117=ORIENTED_EDGE('',*,*,#214,.T.);
#118=ORIENTED_EDGE('',*,*,#202,.T.);
#119=ORIENTED_EDGE('',*,*,#215,.F.);
#120=ORIENTED_EDGE('',*,*,#216,.F.);
#121=ORIENTED_EDGE('',*,*,#212,.T.);
#122=ORIENTED_EDGE('',*,*,#205,.F.);
#123=ORIENTED_EDGE('',*,*,#217,.F.);
#124=ORIENTED_EDGE('',*,*,#218,.T.);
#125=ORIENTED_EDGE('',*,*,#215,.T.);
#126=ORIENTED_EDGE('',*,*,#204,.F.);
#127=ORIENTED_EDGE('',*,*,#214,.F.);
#128=ORIENTED_EDGE('',*,*,#219,.T.);
#129=ORIENTED_EDGE('',*,*,#217,.T.);
#130=ORIENTED_EDGE('',*,*,#213,.F.);
#131=ORIENTED_EDGE('',*,*,#216,.T.);
#132=ORIENTED_EDGE('',*,*,#218,.F.);
#133=ORIENTED_EDGE('',*,*,#219,.F.);
#134=ORIENTED_EDGE('',*,*,#206,.T.);
#135=ORIENTED_EDGE('',*,*,#220,.F.);
#136=ORIENTED_EDGE('',*,*,#221,.F.);
#137=ORIENTED_EDGE('',*,*,#222,.T.);
#138=ORIENTED_EDGE('',*,*,#209,.T.);
#139=ORIENTED_EDGE('',*,*,#223,.F.);
#140=ORIENTED_EDGE('',*,*,#224,.F.);
#141=ORIENTED_EDGE('',*,*,#220,.T.);
#142=ORIENTED_EDGE('',*,*,#208,.F.);
#143=ORIENTED_EDGE('',*,*,#225,.F.);
#144=ORIENTED_EDGE('',*,*,#226,.T.);
#145=ORIENTED_EDGE('',*,*,#223,.T.);
#146=ORIENTED_EDGE('',*,*,#207,.T.);
#147=ORIENTED_EDGE('',*,*,#222,.F.);
#148=ORIENTED_EDGE('',*,*,#227,.F.);
#149=ORIENTED_EDGE('',*,*,#225,.T.);
#150=ORIENTED_EDGE('',*,*,#221,.T.);
#151=ORIENTED_EDGE('',*,*,#224,.T.);
#152=ORIENTED_EDGE('',*,*,#226,.F.);
#153=ORIENTED_EDGE('',*,*,#227,.T.);
#154=ORIENTED_EDGE('',*,*,#190,.T.);
#155=ORIENTED_EDGE('',*,*,#228,.T.);
#156=ORIENTED_EDGE('',*,*,#229,.T.);
#157=ORIENTED_EDGE('',*,*,#230,.F.);
#158=ORIENTED_EDGE('',*,*,#195,.T.);
#159=ORIENTED_EDGE('',*,*,#231,.F.);
#160=ORIENTED_EDGE('',*,*,#228,.F.);
#161=ORIENTED_EDGE('',*,*,#189,.F.);
#162=ORIENTED_EDGE('',*,*,#191,.T.);
#163=ORIENTED_EDGE('',*,*,#230,.T.);
#164=ORIENTED_EDGE('',*,*,#232,.T.);
#165=ORIENTED_EDGE('',*,*,#199,.F.);
#166=ORIENTED_EDGE('',*,*,#200,.T.);
#167=ORIENTED_EDGE('',*,*,#232,.F.);
#168=ORIENTED_EDGE('',*,*,#229,.F.);
#169=ORIENTED_EDGE('',*,*,#231,.T.);
#170=ORIENTED_EDGE('',*,*,#194,.T.);
#171=ORIENTED_EDGE('',*,*,#233,.T.);
#172=ORIENTED_EDGE('',*,*,#234,.F.);
#173=ORIENTED_EDGE('',*,*,#235,.F.);
#174=ORIENTED_EDGE('',*,*,#187,.T.);
#175=ORIENTED_EDGE('',*,*,#235,.T.);
#176=ORIENTED_EDGE('',*,*,#236,.T.);
#177=ORIENTED_EDGE('',*,*,#196,.F.);
#178=ORIENTED_EDGE('',*,*,#198,.T.);
#179=ORIENTED_EDGE('',*,*,#237,.F.);
#180=ORIENTED_EDGE('',*,*,#233,.F.);
#181=ORIENTED_EDGE('',*,*,#193,.F.);
#182=ORIENTED_EDGE('',*,*,#197,.F.);
#183=ORIENTED_EDGE('',*,*,#236,.F.);
#184=ORIENTED_EDGE('',*,*,#234,.T.);
#185=ORIENTED_EDGE('',*,*,#237,.T.);
#186=EDGE_CURVE('',#238,#238,#274,.T.);
#187=EDGE_CURVE('',#239,#240,#26,.T.);
#188=EDGE_CURVE('',#241,#239,#275,.T.);
#189=EDGE_CURVE('',#241,#242,#27,.T.);
#190=EDGE_CURVE('',#243,#242,#276,.T.);
#191=EDGE_CURVE('',#244,#243,#28,.T.);
#192=EDGE_CURVE('',#245,#244,#277,.T.);
#193=EDGE_CURVE('',#245,#246,#29,.T.);
#194=EDGE_CURVE('',#240,#246,#278,.T.);
#195=EDGE_CURVE('',#241,#247,#30,.T.);
#196=EDGE_CURVE('',#239,#248,#31,.T.);
#197=EDGE_CURVE('',#248,#249,#32,.T.);
#198=EDGE_CURVE('',#245,#249,#33,.T.);
#199=EDGE_CURVE('',#244,#250,#34,.T.);
#200=EDGE_CURVE('',#247,#250,#35,.T.);
#201=EDGE_CURVE('',#251,#251,#279,.T.);
#202=EDGE_CURVE('',#252,#253,#280,.T.);
#203=EDGE_CURVE('',#252,#254,#281,.T.);
#204=EDGE_CURVE('',#254,#255,#282,.T.);
#205=EDGE_CURVE('',#255,#253,#283,.T.);
#206=EDGE_CURVE('',#256,#257,#284,.T.);
#207=EDGE_CURVE('',#258,#256,#285,.T.);
#208=EDGE_CURVE('',#258,#259,#286,.T.);
#209=EDGE_CURVE('',#257,#259,#287,.T.);
#210=EDGE_CURVE('',#260,#260,#288,.T.);
#211=EDGE_CURVE('',#261,#261,#289,.F.);
#212=EDGE_CURVE('',#262,#252,#36,.T.);
#213=EDGE_CURVE('',#262,#263,#290,.T.);
#214=EDGE_CURVE('',#263,#254,#37,.T.);
#215=EDGE_CURVE('',#264,#253,#38,.T.);
#216=EDGE_CURVE('',#262,#264,#291,.T.);
#217=EDGE_CURVE('',#265,#255,#39,.T.);
#218=EDGE_CURVE('',#265,#264,#292,.T.);
#219=EDGE_CURVE('',#263,#265,#293,.T.);
#220=EDGE_CURVE('',#266,#257,#40,.T.);
#221=EDGE_CURVE('',#267,#266,#294,.T.);
#222=EDGE_CURVE('',#267,#256,#41,.T.);
#223=EDGE_CURVE('',#268,#259,#42,.T.);
#224=EDGE_CURVE('',#266,#268,#295,.T.);
#225=EDGE_CURVE('',#269,#258,#43,.T.);
#226=EDGE_CURVE('',#269,#268,#296,.T.);
#227=EDGE_CURVE('',#269,#267,#297,.T.);
#228=EDGE_CURVE('',#242,#270,#44,.T.);
#229=EDGE_CURVE('',#270,#271,#45,.T.);
#230=EDGE_CURVE('',#243,#271,#46,.T.);
#231=EDGE_CURVE('',#270,#247,#47,.T.);
#232=EDGE_CURVE('',#271,#250,#48,.T.);
#233=EDGE_CURVE('',#246,#272,#49,.T.);
#234=EDGE_CURVE('',#273,#272,#50,.T.);
#235=EDGE_CURVE('',#240,#273,#51,.T.);
#236=EDGE_CURVE('',#273,#248,#52,.T.);
#237=EDGE_CURVE('',#272,#249,#53,.T.);
#238=VERTEX_POINT('',#582);
#239=VERTEX_POINT('',#584);
#240=VERTEX_POINT('',#585);
#241=VERTEX_POINT('',#587);
#242=VERTEX_POINT('',#589);
#243=VERTEX_POINT('',#591);
#244=VERTEX_POINT('',#593);
#245=VERTEX_POINT('',#595);
#246=VERTEX_POINT('',#597);
#247=VERTEX_POINT('',#601);
#248=VERTEX_POINT('',#603);
#249=VERTEX_POINT('',#605);
#250=VERTEX_POINT('',#608);
#251=VERTEX_POINT('',#612);
#252=VERTEX_POINT('',#614);
#253=VERTEX_POINT('',#615);
#254=VERTEX_POINT('',#617);
#255=VERTEX_POINT('',#619);
#256=VERTEX_POINT('',#622);
#257=VERTEX_POINT('',#623);
#258=VERTEX_POINT('',#625);
#259=VERTEX_POINT('',#627);
#260=VERTEX_POINT('',#631);
#261=VERTEX_POINT('',#634);
#262=VERTEX_POINT('',#638);
#263=VERTEX_POINT('',#640);
#264=VERTEX_POINT('',#644);
#265=VERTEX_POINT('',#648);
#266=VERTEX_POINT('',#655);
#267=VERTEX_POINT('',#657);
#268=VERTEX_POINT('',#661);
#269=VERTEX_POINT('',#665);
#270=VERTEX_POINT('',#672);
#271=VERTEX_POINT('',#674);
#272=VERTEX_POINT('',#683);
#273=VERTEX_POINT('',#685);
#274=CIRCLE('',#406,0.0035);
#275=CIRCLE('',#407,0.0035);
#276=CIRCLE('',#408,0.0035);
#277=CIRCLE('',#409,0.0035);
#278=CIRCLE('',#410,0.0035);
#279=CIRCLE('',#413,0.0125);
#280=CIRCLE('',#414,0.0065);
#281=CIRCLE('',#415,0.00150000000000045);
#282=CIRCLE('',#416,0.009);
#283=CIRCLE('',#417,0.0015);
#284=CIRCLE('',#418,0.009);
#285=CIRCLE('',#419,0.00150000000000045);
#286=CIRCLE('',#420,0.0065);
#287=CIRCLE('',#421,0.0015);
#288=CIRCLE('',#423,0.0125);
#289=CIRCLE('',#425,0.012);
#290=CIRCLE('',#428,0.00150000000000045);
#291=CIRCLE('',#430,0.0065);
#292=CIRCLE('',#432,0.0015);
#293=CIRCLE('',#434,0.009);
#294=CIRCLE('',#437,0.009);
#295=CIRCLE('',#439,0.0015);
#296=CIRCLE('',#441,0.0065);
#297=CIRCLE('',#443,0.00150000000000045);
#298=EDGE_LOOP('',(#82));
#299=EDGE_LOOP('',(#83,#84,#85,#86,#87,#88,#89,#90));
#300=EDGE_LOOP('',(#91,#92,#93,#94,#95,#96,#97,#98));
#301=EDGE_LOOP('',(#99));
#302=EDGE_LOOP('',(#100,#101,#102,#103));
#303=EDGE_LOOP('',(#104,#105,#106,#107));
#304=EDGE_LOOP('',(#108));
#305=EDGE_LOOP('',(#109));
#306=EDGE_LOOP('',(#110));
#307=EDGE_LOOP('',(#111));
#308=EDGE_LOOP('',(#112));
#309=EDGE_LOOP('',(#113));
#310=EDGE_LOOP('',(#114,#115,#116,#117));
#311=EDGE_LOOP('',(#118,#119,#120,#121));
#312=EDGE_LOOP('',(#122,#123,#124,#125));
#313=EDGE_LOOP('',(#126,#127,#128,#129));
#314=EDGE_LOOP('',(#130,#131,#132,#133));
#315=EDGE_LOOP('',(#134,#135,#136,#137));
#316=EDGE_LOOP('',(#138,#139,#140,#141));
#317=EDGE_LOOP('',(#142,#143,#144,#145));
#318=EDGE_LOOP('',(#146,#147,#148,#149));
#319=EDGE_LOOP('',(#150,#151,#152,#153));
#320=EDGE_LOOP('',(#154,#155,#156,#157));
#321=EDGE_LOOP('',(#158,#159,#160,#161));
#322=EDGE_LOOP('',(#162,#163,#164,#165));
#323=EDGE_LOOP('',(#166,#167,#168,#169));
#324=EDGE_LOOP('',(#170,#171,#172,#173));
#325=EDGE_LOOP('',(#174,#175,#176,#177));
#326=EDGE_LOOP('',(#178,#179,#180,#181));
#327=EDGE_LOOP('',(#182,#183,#184,#185));
#328=FACE_BOUND('',#298,.T.);
#329=FACE_BOUND('',#299,.T.);
#330=FACE_BOUND('',#300,.T.);
#331=FACE_BOUND('',#301,.T.);
#332=FACE_BOUND('',#302,.T.);
#333=FACE_BOUND('',#303,.T.);
#334=FACE_BOUND('',#304,.T.);
#335=FACE_BOUND('',#305,.T.);
#336=FACE_BOUND('',#306,.T.);
#337=FACE_BOUND('',#307,.T.);
#338=FACE_BOUND('',#308,.T.);
#339=FACE_BOUND('',#309,.T.);
#340=FACE_BOUND('',#310,.T.);
#341=FACE_BOUND('',#311,.T.);
#342=FACE_BOUND('',#312,.T.);
#343=FACE_BOUND('',#313,.T.);
#344=FACE_BOUND('',#314,.T.);
#345=FACE_BOUND('',#315,.T.);
#346=FACE_BOUND('',#316,.T.);
#347=FACE_BOUND('',#317,.T.);
#348=FACE_BOUND('',#318,.T.);
#349=FACE_BOUND('',#319,.T.);
#350=FACE_BOUND('',#320,.T.);
#351=FACE_BOUND('',#321,.T.);
#352=FACE_BOUND('',#322,.T.);
#353=FACE_BOUND('',#323,.T.);
#354=FACE_BOUND('',#324,.T.);
#355=FACE_BOUND('',#325,.T.);
#356=FACE_BOUND('',#326,.T.);
#357=FACE_BOUND('',#327,.T.);
#358=CYLINDRICAL_SURFACE('',#405,0.0035);
#359=CYLINDRICAL_SURFACE('',#422,0.0125);
#360=CYLINDRICAL_SURFACE('',#427,0.00150000000000045);
#361=CYLINDRICAL_SURFACE('',#429,0.0065);
#362=CYLINDRICAL_SURFACE('',#431,0.0015);
#363=CYLINDRICAL_SURFACE('',#433,0.009);
#364=CYLINDRICAL_SURFACE('',#436,0.009);
#365=CYLINDRICAL_SURFACE('',#438,0.0015);
#366=CYLINDRICAL_SURFACE('',#440,0.0065);
#367=CYLINDRICAL_SURFACE('',#442,0.00150000000000045);
#368=ADVANCED_FACE('',(#328,#329),#358,.T.);
#369=ADVANCED_FACE('',(#330),#13,.T.);
#370=ADVANCED_FACE('',(#331,#332,#333),#14,.T.);
#371=ADVANCED_FACE('',(#334,#335),#359,.T.);
#372=ADVANCED_FACE('',(#336,#337),#15,.F.);
#373=ADVANCED_FACE('',(#338,#339),#12,.T.);
#374=ADVANCED_FACE('',(#340),#360,.F.);
#375=ADVANCED_FACE('',(#341),#361,.T.);
#376=ADVANCED_FACE('',(#342),#362,.F.);
#377=ADVANCED_FACE('',(#343),#363,.F.);
#378=ADVANCED_FACE('',(#344),#16,.T.);
#379=ADVANCED_FACE('',(#345),#364,.F.);
#380=ADVANCED_FACE('',(#346),#365,.F.);
#381=ADVANCED_FACE('',(#347),#366,.T.);
#382=ADVANCED_FACE('',(#348),#367,.F.);
#383=ADVANCED_FACE('',(#349),#17,.T.);
#384=ADVANCED_FACE('',(#350),#18,.T.);
#385=ADVANCED_FACE('',(#351),#19,.F.);
#386=ADVANCED_FACE('',(#352),#20,.T.);
#387=ADVANCED_FACE('',(#353),#21,.F.);
#388=ADVANCED_FACE('',(#354),#22,.T.);
#389=ADVANCED_FACE('',(#355),#23,.T.);
#390=ADVANCED_FACE('',(#356),#24,.F.);
#391=ADVANCED_FACE('',(#357),#25,.T.);
#392=CLOSED_SHELL('',(#368,#369,#370,#371,#372,#373,#374,#375,#376,#377,
#378,#379,#380,#381,#382,#383,#384,#385,#386,#387,#388,#389,#390,#391));
#393=STYLED_ITEM('',(#394),#401);
#394=PRESENTATION_STYLE_ASSIGNMENT((#395));
#395=SURFACE_STYLE_USAGE(.BOTH.,#396);
#396=SURFACE_SIDE_STYLE('',(#397));
#397=SURFACE_STYLE_FILL_AREA(#398);
#398=FILL_AREA_STYLE('',(#399));
#399=FILL_AREA_STYLE_COLOUR('',#400);
#400=COLOUR_RGB('',0.882352941176471,0.572549019607843,0.47843137254902);
#401=MANIFOLD_SOLID_BREP('Piston',#392);
#402=SHAPE_DEFINITION_REPRESENTATION(#698,#403);
#403=SHAPE_REPRESENTATION('Piston',(#404),#693);
#404=AXIS2_PLACEMENT_3D('',#579,#453,#454);
#405=AXIS2_PLACEMENT_3D('',#580,#455,#456);
#406=AXIS2_PLACEMENT_3D('',#581,#457,#458);
#407=AXIS2_PLACEMENT_3D('',#586,#460,#461);
#408=AXIS2_PLACEMENT_3D('',#590,#463,#464);
#409=AXIS2_PLACEMENT_3D('',#594,#466,#467);
#410=AXIS2_PLACEMENT_3D('',#598,#469,#470);
#411=AXIS2_PLACEMENT_3D('',#599,#471,#472);
#412=AXIS2_PLACEMENT_3D('',#610,#479,#480);
#413=AXIS2_PLACEMENT_3D('',#611,#481,#482);
#414=AXIS2_PLACEMENT_3D('',#613,#483,#484);
#415=AXIS2_PLACEMENT_3D('',#616,#485,#486);
#416=AXIS2_PLACEMENT_3D('',#618,#487,#488);
#417=AXIS2_PLACEMENT_3D('',#620,#489,#490);
#418=AXIS2_PLACEMENT_3D('',#621,#491,#492);
#419=AXIS2_PLACEMENT_3D('',#624,#493,#494);
#420=AXIS2_PLACEMENT_3D('',#626,#495,#496);
#421=AXIS2_PLACEMENT_3D('',#628,#497,#498);
#422=AXIS2_PLACEMENT_3D('',#629,#499,#500);
#423=AXIS2_PLACEMENT_3D('',#630,#501,#502);
#424=AXIS2_PLACEMENT_3D('',#632,#503,#504);
#425=AXIS2_PLACEMENT_3D('',#633,#505,#506);
#426=AXIS2_PLACEMENT_3D('',#635,#507,#508);
#427=AXIS2_PLACEMENT_3D('',#636,#509,#510);
#428=AXIS2_PLACEMENT_3D('',#639,#512,#513);
#429=AXIS2_PLACEMENT_3D('',#642,#515,#516);
#430=AXIS2_PLACEMENT_3D('',#645,#518,#519);
#431=AXIS2_PLACEMENT_3D('',#646,#520,#521);
#432=AXIS2_PLACEMENT_3D('',#649,#523,#524);
#433=AXIS2_PLACEMENT_3D('',#650,#525,#526);
#434=AXIS2_PLACEMENT_3D('',#651,#527,#528);
#435=AXIS2_PLACEMENT_3D('',#652,#529,#530);
#436=AXIS2_PLACEMENT_3D('',#653,#531,#532);
#437=AXIS2_PLACEMENT_3D('',#656,#534,#535);
#438=AXIS2_PLACEMENT_3D('',#659,#537,#538);
#439=AXIS2_PLACEMENT_3D('',#662,#540,#541);
#440=AXIS2_PLACEMENT_3D('',#663,#542,#543);
#441=AXIS2_PLACEMENT_3D('',#666,#545,#546);
#442=AXIS2_PLACEMENT_3D('',#667,#547,#548);
#443=AXIS2_PLACEMENT_3D('',#668,#549,#550);
#444=AXIS2_PLACEMENT_3D('',#669,#551,#552);
#445=AXIS2_PLACEMENT_3D('',#670,#553,#554);
#446=AXIS2_PLACEMENT_3D('',#676,#558,#559);
#447=AXIS2_PLACEMENT_3D('',#678,#561,#562);
#448=AXIS2_PLACEMENT_3D('',#680,#564,#565);
#449=AXIS2_PLACEMENT_3D('',#681,#566,#567);
#450=AXIS2_PLACEMENT_3D('',#687,#571,#572);
#451=AXIS2_PLACEMENT_3D('',#689,#574,#575);
#452=AXIS2_PLACEMENT_3D('',#691,#577,#578);
#453=DIRECTION('',(0.,0.,1.));
#454=DIRECTION('',(1.,0.,0.));
#455=DIRECTION('',(0.,0.,1.));
#456=DIRECTION('',(1.,0.,0.));
#457=DIRECTION('',(0.,0.,-1.));
#458=DIRECTION('',(-1.,0.,0.));
#459=DIRECTION('',(0.,0.,1.));
#460=DIRECTION('',(0.,0.,-1.));
#461=DIRECTION('',(-1.,0.,0.));
#462=DIRECTION('',(0.,0.,1.));
#463=DIRECTION('',(0.,0.,-1.));
#464=DIRECTION('',(-1.,0.,0.));
#465=DIRECTION('',(0.,0.,1.));
#466=DIRECTION('',(0.,0.,-1.));
#467=DIRECTION('',(-1.,0.,0.));
#468=DIRECTION('',(0.,0.,1.));
#469=DIRECTION('',(0.,0.,-1.));
#470=DIRECTION('',(-1.,0.,0.));
#471=DIRECTION('',(0.,0.,-1.));
#472=DIRECTION('',(1.,0.,0.));
#473=DIRECTION('',(-1.30104260698261E-16,-1.,0.));
#474=DIRECTION('',(0.,1.,0.));
#475=DIRECTION('',(-1.,0.,0.));
#476=DIRECTION('',(0.,1.,0.));
#477=DIRECTION('',(-8.67361737988404E-17,-1.,0.));
#478=DIRECTION('',(-1.,0.,0.));
#479=DIRECTION('',(0.,0.,1.));
#480=DIRECTION('',(1.,0.,0.));
#481=DIRECTION('',(0.,0.,1.));
#482=DIRECTION('',(1.,0.,0.));
#483=DIRECTION('',(0.,0.,-1.));
#484=DIRECTION('',(1.,0.,0.));
#485=DIRECTION('',(0.,0.,-1.));
#486=DIRECTION('',(1.,0.,0.));
#487=DIRECTION('',(0.,0.,-1.));
#488=DIRECTION('',(1.,0.,0.));
#489=DIRECTION('',(0.,0.,-1.));
#490=DIRECTION('',(1.,0.,0.));
#491=DIRECTION('',(0.,0.,1.));
#492=DIRECTION('',(1.,0.,0.));
#493=DIRECTION('',(0.,0.,1.));
#494=DIRECTION('',(1.,0.,0.));
#495=DIRECTION('',(0.,0.,1.));
#496=DIRECTION('',(1.,0.,0.));
#497=DIRECTION('',(0.,0.,1.));
#498=DIRECTION('',(1.,0.,0.));
#499=DIRECTION('',(0.,0.,1.));
#500=DIRECTION('',(1.,0.,0.));
#501=DIRECTION('',(0.,0.,1.));
#502=DIRECTION('',(1.,0.,0.));
#503=DIRECTION('',(0.,0.,1.));
#504=DIRECTION('',(1.,0.,0.));
#505=DIRECTION('',(0.,0.,1.));
#506=DIRECTION('',(1.,0.,0.));
#507=DIRECTION('',(0.,0.,1.));
#508=DIRECTION('',(1.,0.,0.));
#509=DIRECTION('',(0.,0.,1.));
#510=DIRECTION('',(1.,0.,0.));
#511=DIRECTION('',(0.,0.,1.));
#512=DIRECTION('',(0.,0.,-1.));
#513=DIRECTION('',(1.,0.,0.));
#514=DIRECTION('',(0.,0.,1.));
#515=DIRECTION('',(0.,0.,1.));
#516=DIRECTION('',(1.,0.,0.));
#517=DIRECTION('',(0.,0.,1.));
#518=DIRECTION('',(0.,0.,-1.));
#519=DIRECTION('',(1.,0.,0.));
#520=DIRECTION('',(0.,0.,1.));
#521=DIRECTION('',(1.,0.,0.));
#522=DIRECTION('',(0.,0.,1.));
#523=DIRECTION('',(0.,0.,-1.));
#524=DIRECTION('',(1.,0.,0.));
#525=DIRECTION('',(0.,0.,1.));
#526=DIRECTION('',(1.,0.,0.));
#527=DIRECTION('',(0.,0.,-1.));
#528=DIRECTION('',(1.,0.,0.));
#529=DIRECTION('',(0.,0.,1.));
#530=DIRECTION('',(1.,0.,0.));
#531=DIRECTION('',(0.,0.,1.));
#532=DIRECTION('',(1.,0.,0.));
#533=DIRECTION('',(0.,0.,1.));
#534=DIRECTION('',(0.,0.,1.));
#535=DIRECTION('',(1.,0.,0.));
#536=DIRECTION('',(0.,0.,1.));
#537=DIRECTION('',(0.,0.,1.));
#538=DIRECTION('',(1.,0.,0.));
#539=DIRECTION('',(0.,0.,1.));
#540=DIRECTION('',(0.,0.,1.));
#541=DIRECTION('',(1.,0.,0.));
#542=DIRECTION('',(0.,0.,1.));
#543=DIRECTION('',(1.,0.,0.));
#544=DIRECTION('',(0.,0.,1.));
#545=DIRECTION('',(0.,0.,1.));
#546=DIRECTION('',(1.,0.,0.));
#547=DIRECTION('',(0.,0.,1.));
#548=DIRECTION('',(1.,0.,0.));
#549=DIRECTION('',(0.,0.,1.));
#550=DIRECTION('',(1.,0.,0.));
#551=DIRECTION('',(0.,0.,1.));
#552=DIRECTION('',(1.,0.,0.));
#553=DIRECTION('',(0.,0.,-1.));
#554=DIRECTION('',(1.,0.,0.));
#555=DIRECTION('',(-1.30104260698261E-16,-1.,0.));
#556=DIRECTION('',(-1.,0.,0.));
#557=DIRECTION('',(-8.67361737988404E-17,-1.,0.));
#558=DIRECTION('',(1.,-1.30104260698261E-16,0.));
#559=DIRECTION('',(1.30104260698261E-16,1.,0.));
#560=DIRECTION('',(0.,0.,-1.));
#561=DIRECTION('',(1.,-8.67361737988404E-17,0.));
#562=DIRECTION('',(8.67361737988404E-17,1.,0.));
#563=DIRECTION('',(0.,0.,-1.));
#564=DIRECTION('',(0.,-1.,0.));
#565=DIRECTION('',(0.,0.,-1.));
#566=DIRECTION('',(0.,0.,-1.));
#567=DIRECTION('',(1.,0.,0.));
#568=DIRECTION('',(0.,1.,0.));
#569=DIRECTION('',(-1.,0.,0.));
#570=DIRECTION('',(0.,1.,0.));
#571=DIRECTION('',(-1.,0.,0.));
#572=DIRECTION('',(0.,0.,1.));
#573=DIRECTION('',(0.,0.,-1.));
#574=DIRECTION('',(-1.,0.,0.));
#575=DIRECTION('',(0.,0.,1.));
#576=DIRECTION('',(0.,0.,-1.));
#577=DIRECTION('',(0.,-1.,0.));
#578=DIRECTION('',(0.,0.,-1.));
#579=CARTESIAN_POINT('',(0.,0.,0.));
#580=CARTESIAN_POINT('',(0.,-2.14313189850787E-19,-0.018));
#581=CARTESIAN_POINT('',(0.,-2.14313189850787E-19,-0.005));
#582=CARTESIAN_POINT('',(-0.0035,-2.14313189850787E-19,-0.005));
#583=CARTESIAN_POINT('',(0.0005,-0.00346410161513775,-0.018));
#584=CARTESIAN_POINT('',(0.0005,-0.00346410161513775,-0.018));
#585=CARTESIAN_POINT('',(0.0005,-0.00346410161513775,-0.011));
#586=CARTESIAN_POINT('',(0.,-2.14313189850787E-19,-0.018));
#587=CARTESIAN_POINT('',(0.0005,0.00346410161513775,-0.018));
#588=CARTESIAN_POINT('',(0.0005,0.00346410161513775,-0.018));
#589=CARTESIAN_POINT('',(0.0005,0.00346410161513775,-0.011));
#590=CARTESIAN_POINT('',(0.,-2.14313189850787E-19,-0.011));
#591=CARTESIAN_POINT('',(-0.0005,0.00346410161513775,-0.011));
#592=CARTESIAN_POINT('',(-0.0005,0.00346410161513775,-0.018));
#593=CARTESIAN_POINT('',(-0.0005,0.00346410161513775,-0.018));
#594=CARTESIAN_POINT('',(0.,-2.14313189850787E-19,-0.018));
#595=CARTESIAN_POINT('',(-0.0005,-0.00346410161513775,-0.018));
#596=CARTESIAN_POINT('',(-0.0005,-0.00346410161513775,-0.018));
#597=CARTESIAN_POINT('',(-0.0005,-0.00346410161513775,-0.011));
#598=CARTESIAN_POINT('',(0.,-2.14313189850787E-19,-0.011));
#599=CARTESIAN_POINT('',(0.,0.,-0.018));
#600=CARTESIAN_POINT('',(0.0005,0.0035,-0.018));
#601=CARTESIAN_POINT('',(0.0005,0.00225,-0.018));
#602=CARTESIAN_POINT('',(0.0005,-0.0035,-0.018));
#603=CARTESIAN_POINT('',(0.0005,-0.00225,-0.018));
#604=CARTESIAN_POINT('',(1.0842021724855E-19,-0.00225,-0.018));
#605=CARTESIAN_POINT('',(-0.0005,-0.00225,-0.018));
#606=CARTESIAN_POINT('',(-0.0005,-0.0035,-0.018));
#607=CARTESIAN_POINT('',(-0.0005,0.0035,-0.018));
#608=CARTESIAN_POINT('',(-0.0005,0.00225,-0.018));
#609=CARTESIAN_POINT('',(5.42101086242752E-19,0.00225,-0.018));
#610=CARTESIAN_POINT('',(0.,0.,0.));
#611=CARTESIAN_POINT('',(0.,7.65404249467096E-19,0.));
#612=CARTESIAN_POINT('',(0.0125,7.65404249467096E-19,0.));
#613=CARTESIAN_POINT('',(-0.00207223335657021,4.33680868994202E-18,0.));
#614=CARTESIAN_POINT('',(0.00293933982822019,0.00413933982822018,0.));
#615=CARTESIAN_POINT('',(0.00293933982822018,-0.00413933982822018,0.));
#616=CARTESIAN_POINT('',(0.00399999999999968,0.00519999999999968,0.));
#617=CARTESIAN_POINT('',(0.00510084953595289,0.00621888679410046,0.));
#618=CARTESIAN_POINT('',(-0.00140495149406355,4.33680868994202E-18,0.));
#619=CARTESIAN_POINT('',(0.00506066017177982,-0.00626066017177982,0.));
#620=CARTESIAN_POINT('',(0.004,-0.0052,0.));
#621=CARTESIAN_POINT('',(0.00140495149406355,5.63785129692462E-18,0.));
#622=CARTESIAN_POINT('',(-0.00510084953595289,0.00621888679410046,0.));
#623=CARTESIAN_POINT('',(-0.00506066017177982,-0.00626066017177982,0.));
#624=CARTESIAN_POINT('',(-0.00399999999999968,0.00519999999999968,0.));
#625=CARTESIAN_POINT('',(-0.00293933982821954,0.00413933982821954,0.));
#626=CARTESIAN_POINT('',(0.00207223335657021,4.33680868994202E-18,0.));
#627=CARTESIAN_POINT('',(-0.00293933982822018,-0.00413933982822018,0.));
#628=CARTESIAN_POINT('',(-0.004,-0.0052,0.));
#629=CARTESIAN_POINT('',(0.,7.65404249467096E-19,-0.005));
#630=CARTESIAN_POINT('',(0.,7.65404249467096E-19,-0.0045));
#631=CARTESIAN_POINT('',(0.0125,7.65404249467096E-19,-0.0045));
#632=CARTESIAN_POINT('',(0.,0.,-0.005));
#633=CARTESIAN_POINT('',(0.,7.65404249467096E-19,-0.005));
#634=CARTESIAN_POINT('',(0.012,7.65404249467096E-19,-0.005));
#635=CARTESIAN_POINT('',(0.,7.65404249467096E-19,-0.0045));
#636=CARTESIAN_POINT('',(0.00399999999999968,0.00519999999999968,-0.002));
#637=CARTESIAN_POINT('',(0.00293933982822019,0.00413933982822018,-0.002));
#638=CARTESIAN_POINT('',(0.00293933982822019,0.00413933982822018,-0.002));
#639=CARTESIAN_POINT('',(0.00399999999999968,0.00519999999999968,-0.002));
#640=CARTESIAN_POINT('',(0.00510084953595289,0.00621888679410046,-0.002));
#641=CARTESIAN_POINT('',(0.00510084953595289,0.00621888679410046,-0.002));
#642=CARTESIAN_POINT('',(-0.00207223335657021,4.33680868994202E-18,-0.002));
#643=CARTESIAN_POINT('',(0.00293933982822018,-0.00413933982822018,-0.002));
#644=CARTESIAN_POINT('',(0.00293933982822018,-0.00413933982822018,-0.002));
#645=CARTESIAN_POINT('',(-0.00207223335657021,4.33680868994202E-18,-0.002));
#646=CARTESIAN_POINT('',(0.004,-0.0052,-0.002));
#647=CARTESIAN_POINT('',(0.00506066017177982,-0.00626066017177982,-0.002));
#648=CARTESIAN_POINT('',(0.00506066017177982,-0.00626066017177982,-0.002));
#649=CARTESIAN_POINT('',(0.004,-0.0052,-0.002));
#650=CARTESIAN_POINT('',(-0.00140495149406355,4.33680868994202E-18,-0.002));
#651=CARTESIAN_POINT('',(-0.00140495149406355,4.33680868994202E-18,-0.002));
#652=CARTESIAN_POINT('',(0.,0.,-0.002));
#653=CARTESIAN_POINT('',(0.00140495149406355,5.63785129692462E-18,-0.002));
#654=CARTESIAN_POINT('',(-0.00506066017177982,-0.00626066017177982,-0.002));
#655=CARTESIAN_POINT('',(-0.00506066017177982,-0.00626066017177982,-0.002));
#656=CARTESIAN_POINT('',(0.00140495149406355,5.63785129692462E-18,-0.002));
#657=CARTESIAN_POINT('',(-0.00510084953595289,0.00621888679410046,-0.002));
#658=CARTESIAN_POINT('',(-0.00510084953595289,0.00621888679410046,-0.002));
#659=CARTESIAN_POINT('',(-0.004,-0.0052,-0.002));
#660=CARTESIAN_POINT('',(-0.00293933982822018,-0.00413933982822018,-0.002));
#661=CARTESIAN_POINT('',(-0.00293933982822018,-0.00413933982822018,-0.002));
#662=CARTESIAN_POINT('',(-0.004,-0.0052,-0.002));
#663=CARTESIAN_POINT('',(0.00207223335657021,4.33680868994202E-18,-0.002));
#664=CARTESIAN_POINT('',(-0.00293933982822019,0.00413933982822018,-0.002));
#665=CARTESIAN_POINT('',(-0.00293933982822019,0.00413933982822018,-0.002));
#666=CARTESIAN_POINT('',(0.00207223335657021,4.33680868994202E-18,-0.002));
#667=CARTESIAN_POINT('',(-0.00399999999999968,0.00519999999999968,-0.002));
#668=CARTESIAN_POINT('',(-0.00399999999999968,0.00519999999999968,-0.002));
#669=CARTESIAN_POINT('',(0.,0.,-0.002));
#670=CARTESIAN_POINT('',(0.,0.,-0.011));
#671=CARTESIAN_POINT('',(0.0005,0.0035,-0.011));
#672=CARTESIAN_POINT('',(0.0005,0.00225,-0.011));
#673=CARTESIAN_POINT('',(5.42101086242752E-19,0.00225,-0.011));
#674=CARTESIAN_POINT('',(-0.0005,0.00225,-0.011));
#675=CARTESIAN_POINT('',(-0.0005,0.0035,-0.011));
#676=CARTESIAN_POINT('',(0.0005,0.0035,-0.011));
#677=CARTESIAN_POINT('',(0.0005,0.00225,-0.011));
#678=CARTESIAN_POINT('',(-0.0005,0.0035,-0.011));
#679=CARTESIAN_POINT('',(-0.0005,0.00225,-0.011));
#680=CARTESIAN_POINT('',(5.42101086242752E-19,0.00225,-0.011));
#681=CARTESIAN_POINT('',(0.,0.,-0.011));
#682=CARTESIAN_POINT('',(-0.0005,-0.0035,-0.011));
#683=CARTESIAN_POINT('',(-0.0005,-0.00225,-0.011));
#684=CARTESIAN_POINT('',(1.0842021724855E-19,-0.00225,-0.011));
#685=CARTESIAN_POINT('',(0.0005,-0.00225,-0.011));
#686=CARTESIAN_POINT('',(0.0005,-0.0035,-0.011));
#687=CARTESIAN_POINT('',(0.0005,-0.0035,-0.011));
#688=CARTESIAN_POINT('',(0.0005,-0.00225,-0.011));
#689=CARTESIAN_POINT('',(-0.0005,-0.0035,-0.011));
#690=CARTESIAN_POINT('',(-0.0005,-0.00225,-0.011));
#691=CARTESIAN_POINT('',(1.0842021724855E-19,-0.00225,-0.011));
#692=MECHANICAL_DESIGN_GEOMETRIC_PRESENTATION_REPRESENTATION('',(#393),
#693);
#693=(
GEOMETRIC_REPRESENTATION_CONTEXT(3)
GLOBAL_UNCERTAINTY_ASSIGNED_CONTEXT((#694))
GLOBAL_UNIT_ASSIGNED_CONTEXT((#697,#696,#695))
REPRESENTATION_CONTEXT('Piston','TOP_LEVEL_ASSEMBLY_PART')
);
#694=UNCERTAINTY_MEASURE_WITH_UNIT(LENGTH_MEASURE(1.E-8),#697,
'DISTANCE_ACCURACY_VALUE','Maximum Tolerance applied to model');
#695=(
NAMED_UNIT(*)
SI_UNIT($,.STERADIAN.)
SOLID_ANGLE_UNIT()
);
#696=(
NAMED_UNIT(*)
PLANE_ANGLE_UNIT()
SI_UNIT($,.RADIAN.)
);
#697=(
LENGTH_UNIT()
NAMED_UNIT(*)
SI_UNIT($,.METRE.)
);
#698=PRODUCT_DEFINITION_SHAPE('','',#699);
#699=PRODUCT_DEFINITION('','',#701,#700);
#700=PRODUCT_DEFINITION_CONTEXT('',#707,'design');
#701=PRODUCT_DEFINITION_FORMATION_WITH_SPECIFIED_SOURCE('','',#703,
 .NOT_KNOWN.);
#702=PRODUCT_RELATED_PRODUCT_CATEGORY('','',(#703));
#703=PRODUCT('Piston','Piston','Piston',(#705));
#704=PRODUCT_CATEGORY('','');
#705=PRODUCT_CONTEXT('',#707,'mechanical');
#706=APPLICATION_PROTOCOL_DEFINITION('international standard',
'ap242_managed_model_based_3d_engineering',2011,#707);
#707=APPLICATION_CONTEXT('managed model based 3d engineering');
ENDSEC;
END-ISO-10303-21;
